a b c d e f g h i j k l m n o p q r s t u v w x y z 0-9

Chavo

6 Voltios

			
Esta es la canción secreta del CD desde el sótano.
~ significa: arrastrar el dedo del un traste a otro

INTRO

|----------------3-2-0---------------------------------------------|
|--3-0-0-0-3-0-0-------3-0-0-0-0-1-1~3-----------------------------|
|------------------------------------------------------------------|
|------------------------------------------------------------------|
|------------------------------------------------------------------|
|------------------------------------------------------------------|

|----------------3-2-0-------2-3-----------------------------------|
|--3-0-0-0-3-0-0-------3-0-0---------------------------------------|
|------------------------------------------------------------------|
|------------------------------------------------------------------|
|------------------------------------------------------------------|
|------------------------------------------------------------------|


Eso es todo !!!
Si lo tocas bien te va a salir bien paja.
Si tienes alguna duda no dudes en escribirme!
Si nunca han escuchado 6 voltios, escuchen porque es bien paja!

Fuente original ATAME [www.atame.org]
Colaborador original: Juanda ! ! ! [elgalas@hotmail.com]

Fuente: tusacordes.com