a b c d e f g h i j k l m n o p q r s t u v w x y z 0-9

Chavo

6 Voltios

			
ezte ez el zolo d la kanzion d dia plaztiko, la kize tokar haze tiempo pero no aparezia hazi ke un
pata y yo noz la zakamos ahi va:

PaRtE 1

/----------------/
/-5-5-7-5---5-7--/
/---------7------/
/----------------/
/----------------/
/----------------/

PaRtE 2

/----------------/
/-7-7-8-7-5-7-5--/
/----------------/
/----------------/
/----------------/
/----------------/

PaRtE 3a
/-------------------/
/-5-5-5-5-8-7-5-7---/
/-----------------7-/
/-------------------/
/-------------------/
/-------------------/


ze repite laz partez 1 i 2

PaRtE 3b
/-------------------3^10/
/-5-5-5-5-8-7-5-7-3-----/
/-----------------------/
/-----------------------/
/-----------------------/
/-----------------------/

Fuente original ATAME [www.atame.org]
Colaborador original: oSc|@r [hippyland_182@hotmail.com]

Fuente: tusacordes.com