a b c d e f g h i j k l m n o p q r s t u v w x y z 0-9

Chavo

6 Voltios

A
B
C
			
Esta es la version de mi pata melchos  de el chavo 
está mas completa q la otra pq tiene la letra y
los acordes, como no se el nombre de algunos de esos
acordes los voy a dar en tablaura.
Gracias......Edith te amoooooooo



Introducción

|-----------------------9-7-6----------------------|
|--9---666---9---666-----------9-7-66-6-7~9--------|
|--------------------------------------------------|
|--------------------------------------------------|
|--------------------------------------------------|
|--------------------------------------------------|


|-----------------------9-7-6-------8-9------------|
|--9---666---9---666-----------9-7-----------------|
|--------------------------------------------------|
|--------------------------------------------------|
|--------------------------------------------------|
|--------------------------------------------------|

acordes: Les voy a poner una letra a cada acorde

   A     B     C      
|--x--|--x--|--x--|
|--x--|--x--|--x--|
|--6--|--x--|--x--|
|--6--|--6--|--4--|
|--4--|--6--|--4--|
|--x--|--4--|--2--|

        A 
Que linda vecindad [ vecindad ] 
        B
es la vecindad del chavo [ chavo  ]
        C
no valdrá  ni un centavo [ no vale ni mierda ] 
        A 
pero es linda de verdad  [ de verdad ] 

2 VECES 

     A         B         C            A 
Don Ramóoon y pagale la renta a ese gordo maricón 
     A         B         C            A 
gordo panzon dale espacio a don ramon 
     A         B         C            A 
y anda a empujarte una torta de jamón 




        A 
Que linda vecindad [ vecindad ] 
        B
es la vecindad del chavo [ chavo  ]
        C
no valdrá  ni un centavo [ no vale ni mierda ] 
        A 
pero es linda de verdad  [ de verdad ] 

2 VECES 



se REPITE EL INRO Y TERMINA 



dALE U CARAJO

Fuente original ATAME [www.atame.org]
Colaborador original: Chusco de los puchos pe [lamoscamuerta@hotmail.com]

Fuente: tusacordes.com