a b c d e f g h i j k l m n o p q r s t u v w x y z 0-9

A.r.p.g

6 Voltios

			
HOLA AKI LES MANDO ARPG DEL DISCO GENERACION PERDIDA.

TRADUCIDA POR FRANCISCO WEGERTSEDER  WARISNAKI. 
SALUDOS PAL WEKO DEL NELSON.!! AL PANCHO Y A MI MUSA.	

INTRO

e|----------------------------------------------------------------------|
B|----------------------------------------------------------------------|
G|------3---4---3--------3---4---3---------3---4---3-------3---4---3----|
D|--4-4---4---4---4--------4---4---4---------4---4---4-------4---4---4--|
A|-------------------2-2--------------------------------2-2-------------|
D|------------------------------------4-4-------------------------------|


e|----------------------------------------------------------------------|
B|----------------------------------------------------------------------|
G|------3---4---3--------3---4---3---------3---4---3-------3---5-3-1-3--|
D|--4-4---4---4---4--------4---4---4---------4---4---4-------4----------|
A|-------------------2-2--------------------------------2-2-------------|
D|------------------------------------4-4-------------------------------|


e|------------------------------------------|
B|------------------------------------------|
G|-11-13-15-11-13-15-11-13-15-16-15-13-15---|
D|------------------------------------------| X2
A|------------------------------------------|
D|------------------------------------------|



  F#      B              G#                   B             F#
ESTOY ANSIOSO OTRA VEZ Y NO PUEDO ESPERAR POR VERTE UNA VEZ MAS,

                  B             G#                 B
PORQUE SIEMPRE LA PASO MUY BIEN ESTANDO A TU LADO.

  F#                                  B    
UN DIA EN EL COLE ESTABA MUY RAYADO Y LE DIJE TODO, ESTOY ENAMORADO,

 G#	                                                  B     C#  
NO SE SI LE IMPORTO, NO SE SI FUE PURA FINTA O LE DA IGUAL.

  F#                               B                                 G#   B    C#
CREO QUE NUNCA DEBI HABERTE DICHO, FUE UN ERROR HABERME ENAMORADO DE TI.


G-G#-G-F-B-C#-B-A#-G#-B-A#-B-C#   X2 

e|---------------------------------------------------------------|
B|---------------------------------------------------------------|
G|-11-11--11-13-13--13-11-10-4-4-6-6-6-4-3-1-1-1-1-4-4-3-3-4-4-6-|
D|---------------------------------------------------------------|X2
A|---------------------------------------------------------------|
D|---------------------------------------------------------------|

F#-B-G#-B X2

e|-----------------------------------------|
B|-----------------------------------------|
G|-11-13-15-11-13-15-11-13-15-16-15-13-15--|
D|-----------------------------------------| X2
A|-----------------------------------------|
D|-----------------------------------------|



F#   C#      A# B	   
CREI QUE QUIZAS PODRIA ENAMORARLA 

F#       C#         A#            B
CON UNAS CARTAS DE AMOR O CON UNA TONTA CANCION.

F#     C#   A#   B     
YA ENTENDI, ELLA ME HIZO SABERLO 

F#      C#       A#                 B
PERO ES PATETICO SABER QUE TE VEO Y NO TE PUEDO TOCAR

G#                      C#
Y QUE ME GUSTES Y QUE A TI TE DE IGUAL.


G-G#-G-F-B-C#-B-A#-G#-B-A#-B-C#   X2 

e|---------------------------------------------------------------|
B|---------------------------------------------------------------|
G|-11-11--11-13-13--13-11-10-4-4-6-6-6-4-3-1-1-1-1-4-4-3-3-4-4-6-|
D|---------------------------------------------------------------|X2
A|---------------------------------------------------------------|
D|---------------------------------------------------------------|


F#    B    	     G#             B    
INSENSIBLE OTRA VEZ, ES SUFICIENTE, NO QUIERO SUFRIR MAS

F#        B             G#              B  C#    F#            
HICE TODO LO QUE PUDE Y SI NO FUNCIONA, ES MEJOR OLVIDAR.

Fuente original ATAME [www.atame.org]
Colaborador original: FRANCISCO WEGERTSEDER [FRANCISCOW@VTR.CL]

Fuente: tusacordes.com