a b c d e f g h i j k l m n o p q r s t u v w x y z 0-9

3 Pedazos

6 Voltios

			
esta kancion sale en el video de la pagina de 6 voltios

3Pedazos!
6 Voltios


INTRO

e|--------|--------|------|------|------|------|------|------|
B|--------|--------|------|------|------|------|------|------|
G|--------|--------|------|------|------|------|------|------|
D|--------|---7---7|------|------|--7--7|------|--7--7|--9--9|
A|---7---7|-5---5--|--4--4|--2--2|-5--5-|--7--7|-5--5-|-7--7-|
D|-5---5--|--------|-2--2-|-0--0-|------|-5--5-|------|------|



LA5     RE5    FA#5     MI
Nunca pensé tocar en una banda
RE5         la5        re5        mi5
Y que algún día la gente escuche mi voz
la5     re5    fa#5        Mi5
Tuve mi chance, una gran oportunidad
re5      la5     re5      mi5
Y como vez aun sigo tocando

fa#5
Yo sé que no hay nada para siempre
re5                  la5
Pronto estará todo acabado
Mi
En 3 pedazos


* Se RePiTE ..

e|--------|--------|------|------|------|------|------|------|
B|--------|--------|------|------|------|------|------|------|
G|--------|--------|------|------|------|------|------|------|
D|--------|---7---7|------|------|--7--7|------|--7--7|--9--9|
A|---7---7|-5---5--|--4--4|--2--2|-5--5-|--7--7|-5--5-|-7--7-|
D|-5---5--|--------|-2--2-|-0--0-|------|-5--5-|------|------|


la5     re5     fa#5       Mi
Esta será mi última confesión
re5      la5      re5      mi5
Y la verdad EL DESTINO me asusta
la5      re5     fa#5         Mi
Ya no quiero hablar deL FINAL nunca mas
re5     la5     re5      mi5
Lo dejo ahí, Me duele demasiado


fa#5
Yo sé que nada ES para siempre
re5                   la5
Pronto estará todo acabado
Mi
En 3 pedazos
fa#5
Yo sé que nada ES  para siempre
re5                          la5
Todo esto está hecho para romperse
Mi
Y yo estaré en mil pedazos
fa#5             re5          la5
Xq te fallé... eeeee.... eeeeeeeeee

punteo

e|----------------------|-----------------------|------------------|------------------|
B|----------------------|-----------------------|------------------|------------------|
G|----------------------|-----------------------|------------------|------------------|
D|----------------------|-----------------------|------------------|------------------|
A|---4-5-7--5-4-7-5-4--4|--5--4-5-7--5-4-7-5-4-4|---4-5-4-2-0-2-4-5|---5-4-2-5-4-2---2|
D|-5------------------7-|---------------------7-|-2----------------|-0-------------5--|

---------------------|----------------------|-------------------|-----------------|
----2-3-5-3-2-5-3-2-2|-3--2-3-5-3-2-5-3-2--2|-------------------|-----------------|
--2----------------4-|--------------------4-|----6-7-6-4-2-4-6-7|---7-6-4-7-6-4-4-|
---------------------|----------------------|-4-----------------|-2------------7--|
---------------------|----------------------|-------------------|-----------------|
---------------------|----------------------|-------------------|-----------------|

*miren toa la pagina >>>>>>>>>>>>>>>>>>>>>>>>>...

* la parte de abajo supuestamente es la letra ke sigue .. no c de donde la sakaron xq
todavia no hay el mp3.. osea mis amigos dicen ke es asi .. :S
pero esa es la letra ps ..y no c kuales son los akordes xq no la he escuchado ....
ni tp c como termina pero es
esa es too la kancion asta ke termina el video en la pagina de 6 voltios ..

LETRA del final 

8Me pregunto, si por error he de encontrar
Otra vez amigos como ustedes
Nunca voy a olvidar, todo este tiempo
Junto a los chicos q siempre quiero tocar 8

Fuente original ATAME [www.atame.org]
Colaborador original: bruno jose gibaja garcia [brunogg_007@hotmail.com]

Fuente: tusacordes.com