a b c d e f g h i j k l m n o p q r s t u v w x y z 0-9

What´s Up

4 Non Blondes

			
wHaT`S uP - 4 nOn BlOnDeS 
        bY yOrSh

InTrO:
e:--------------------------------------------------------|
B:---------------------------------------------3h4--------|
G:--7/9--9-9-9----------------2-------2---2--2-----4--2---|
D:-------------7--7/4-4-4-2-4---4-2-4---4-----------------|
A:--------------------------------------------------------|
E:--------------------------------------------------------|

e:--------------------------------------------------------|
B:---------------------------------------------3h4--------|
G:----------------------------2-------2---2--2-----4--2---|
D:-------------7--7/4-4-4-2-4---4-2-4---4-----------------|
A:--5-7-5-7-5-7-------------------------------------------|
E:--------------------------------------------------------|

Fuente: tusacordes.com