a b c d e f g h i j k l m n o p q r s t u v w x y z 0-9

Tulio Triviño Y Sus Amigos - Yo Nunca Vi Tele

31 Minutos

			
Este es el pxnteo de esta cancion, es mxy chistosa,
les va a encantar;)

|---------------------------------------------------------|
|---------------------------------------------------------|
|---------------------------------------------------------|
|--0--2--0--4--0--2--0--4--0--2--0-----0------------------|
|-----------------------------------2---------------------| 
|---------------------------------------------------------|

|---------------------------------------------------------|
|---------------------------------------------------------|
|---------------------------------------------------------|
|--0--2--0--4--0--2--0--4--0--2--0------------------------|
|-----------------------------------2---------------------| 
|---------------------------------------------------------|

|---------------------------------------------------------|
|---------------------------------------------------------|
|---------------------------------------------------------|
|--0--2--0--4--0--2--0--4--0--2--0-----0------------------|
|-----------------------------------2---------------------| 
|---------------------------------------------------------|

|---------------------------------------------------------|
|---------------------------------------------------------|
|-----------------------2---------------------------------|
|--0--2--0--4--0--2--0----0--4--2--0----------------------|
|---------------------------------------------------------| 
|---------------------------------------------------------|

|---------------------------------------------------------|
|---------------------------------------------------------|
|-----------------------2---4---2-------------------------|
|--0--2--0--4--0--2--0--------------4---------------------|
|---------------------------------------------------------| 
|---------------------------------------------------------|

|---------------------------------------------------------|
|---------------------------------------------------------|
|-----------------------2---------------------------------|
|--0--2--0--4--0--2--0------4-----------------------------|
|---------------------------------------------------------| 
|---------------------------------------------------------|

|---------------------------------------------------------|
|---------------------------------------------------------|
|-----------------------2---4---2-------------------------|
|--0--2--0--4--0--2--0--------------4---------------------|
|---------------------------------------------------------| 
|---------------------------------------------------------|

|---------------------------------------------------------|
|---------------------------------------------------------|
|-----------------------2---------------------------------|
|--0--2--0--4--0--2--0----0--4--2--0----------------------|
|---------------------------------------------------------| 
|---------------------------------------------------------|

Fuente original ATAME [www.atame.org]
Colaborador original: Ðiego Velaskez Orellana CHIle!! [diegol_11@hotmail.com]

Fuente: tusacordes.com