a b c d e f g h i j k l m n o p q r s t u v w x y z 0-9

Tema Central Del Noticiero

31 Minutos

			
Aqui está la melodia del tema principal de 31 minutos, los acordes no estoy
seguro si estan buenos, pero el resto yo creo que no tiene errores, como diría
Policarpo en su Ranking TopTopTop: ¡Disfrútenlo!

           Re              Sim              Re              Sim     
E||---------------------------------|-------------------------------|
B||---------------------------------|-------------------------------|
G||---------------------------------|-------------------------------|
D||--0-2-0-4-0-2-0-4-0-2-0---0------|--0-2-0-4-0-2-0-4-0-2-0--------|
A||------------------------2--------|------------------------2------|
E||---------------------------------|-------------------------------|


        Re             Sim                    Re          La           Sim     
------------------------------------------|-----------------------------------||
------------------------------------------|-----------------------------------||
------------------------------------------|----------------2------------------||
--0-2-0-4-0-2-0-4-0-2-0---0-4-2-0-2-0-2-0-|--0-2-0-4-0-2-0---0-4-2-0-0-2-0----||
------------------------2-----------------|-----------------------------------||
------------------------------------------|-----------------------------------||


   Sim            Re      Sim                    Re          Sim 
||----------------5-7-5---------|----------------5---------------|
||----5---5---5----------7------|----5---5---5-----7--8-7-5-7----|
||--7---7---7---7---------------|--7---7---7---7--------------7--|
||------------------------------|--------------------------------|
||------------------------------|--------------------------------|
||------------------------------|--------------------------------|


               La Sol Fa# Mi    Re           La      Re       
----------------5------------|----------------5--------------||
----5---5---5------8--7-5----|----5---7---5-------7-5--------||
--7---7---7---7--------------|--7---7---7---7---7-----7------||
-----------------------------|-------------------------------||
-----------------------------|-------------------------------||
-----------------------------|-------------------------------||


Eso es todo, me pueden felicitar o criticar a mi mail martin@allpage.cl y visiten
mi página de animaciones y juegos en flash www.allpage.cl

Fuente original ATAME [www.atame.org]
Colaborador original: Martín Venegas [martin@allpage.cl]

Fuente: tusacordes.com