a b c d e f g h i j k l m n o p q r s t u v w x y z 0-9

Tema Central Del Noticiero

31 Minutos

			
---0---1/2---0---1/2---0-----------0---1/2---0---1/2---0------6/7/2-
-3---3-----3---3-----3---3-0-3---3---3-----3---3-----3---3-0--------
--------------------------------------------------------------------
--------------------------------------------------------------------
--------------------------------------------------------------------
--------------------------------------------------------------------

---0---1/2---0---1/2---0-------0/2-0---0---------0---2---0---5---2-0------0---------*-
-3---3-----3---3-----3---3-0-3-------3---3-0---3---3---3---3---3-----3--3---3-------*-
------------------------------------------------------------------------------------*-
------------------------------------------------------------------------------------*-
------------------------------------------------------------------------------------*-
------------------------------------------------------------------------------------*-

Aqui esta la primera parte.
Esta la saque apoyado en un acompañamiento en ReM y Sim.

Fuente original ATAME [www.atame.org]
Colaborador original: Guillermo Montecinos [loco_hp@hotmail.com]

Fuente: tusacordes.com