a b c d e f g h i j k l m n o p q r s t u v w x y z 0-9

Señora, Devuelvame La Pelota

31 Minutos

			
Señora,devuelvame la pelota, o si no, no se que hare
Pepe Lota
31 Minutos

Bueno no sé si son los acordes originales pero suenan bien, falta el solo
mandenlo. eso. Tab por Daniel Cayupe dedicado al felipin ESTOY SACANDO LAS OTRAS 


e|------6--
B|-----6---
G|----7----
D|---8-----
A|--8------
E|-6-------

Verso:                       mini solo1     mini solo2	     mini solo3

e|----666----333----2222-   |----------| |--------------| |--------------|
B|----666----333----2222-   |-------7--| |-------7------| |--------------| 
G|----777----444----3333-   |----------| |--------------| |--6-8-8h9h8-6-|
D|----888----555----4444-   |----------| |--------8-6-8-| |--------------|
A|----888----555----4444-   |----6h8---| |----6h8-------| |--------------|
E|----666----333----2222-   |-6h8------| |-6h8----------| |--------------|
	
	Cada vez que...

Coro:

e|---33---111----4444----
B|---44---333----4444----
G|---55---333----5555----
D|---55---333----6666----
A|---33---111----6666----
E|---33---111----4444----

	Por favor...

Interlude:
        
e|-3-3-3-3-4-4-4-4--
B|-3-3-3-3-4-4-4-4--
G|-4-4-4-4-5-5-5-5--
D|-5-5-5-5-6-6-6-6-- 3 Veces
A|-5-5-5-5-6-6-6-6--
E|-3-3-3-3-4-4-4-4--

	Por que no te vas a jugar...

Despues: verso /coro /y al final el intro.

Fuente original ATAME [www.atame.org]
Colaborador original: Daniel cayupe [dancape5@hotmail.com]

Fuente: tusacordes.com