a b c d e f g h i j k l m n o p q r s t u v w x y z 0-9

Rinrraja

31 Minutos

G
Em
D
B
F#m
A
			
Esta es una cancion nueva de 31 minutos , y lleva 
 este punteo encima toda la cancion menos el coro.

-------------------------------------------------------------
-------------------------------------------------------------
--7-5-4-5-4-------4---4-5-4--------7-5-4-5-4-------4---4-5---
------------7-5-7---7-------7-5--------------7-5-7---7-----7-
-------------------------------------------------------------
-------------------------------------------------------------

   G                           Em
toco cuatro timbres y me pongo a correr rapido
   G                           Em
sale la vecina que no para de gritar
   G                           Em
atrapen a ese niño que la siesta no deja tomar
   G                           Em
suelten a los perros que lo busquen sin cesar

   G                           Em
soy un fujitivo y atraparme nunca lograran
   G                           Em
toco cuantos timbres que no los puedo contar
   G                           Em
vivo de peligros de aventura mucha exitacion
   G                           Em
andar tocando timbres es mi unica pasion


coro
[ el coro lleva este punteo encima ]
---------------------------------------5-6-5---------
---5-6-5---5-6-5---5-6-8-----5-6-8-6-8-------8-6-8---
---------7-------7-----------------------------------
-----------------------------------------------------
-----------------------------------------------------
-----------------------------------------------------
G
Cuando se asoman a verme ya me fui
por que soy rin raja profesional
toco timbres a una gran velocidad y soy el juan
un relampago de luz que corre toda la ciudad 


   G                            Em
Dicen que es un juego y sirve solo para molestar
   G                            Em
por que no comprenden su real dificultad
   G                            Em
tocar timbres si es capaz requiere gran habilidad
   G                            Em
el rin raja deberia ser deporte nacional

   G                            Em
muchos de nosotros lo tomamos con gran seriedad
   G                            Em
y lo practicamos dia a dia sin cesar
   G                            Em
aunque llueva nieve truene o caiga lava de un volcan
   G                            Em
siempre encontramos un buen timbre que tocar

coro: cuando se asoman a verme ya me fui ...

  D       B    F#m     A 
riiiiin riiiiin raaaaaa jaaaaaa
  D       B    F#m     A 
riiiiin riiiiin raaaaaa jaaaaaa
  D       B    F#m     A 
riiiiin riiiiin raaaaaa jaaaaaa
  D       B        F#m          G 
riiiiin riiiiin raaaaaaaaaaaaaa jaaaaaaaa

   G                     Em
en un dia cualquiera toco 1536
   G                     Em
y con esa cifra ya me puedo retirar
   G                     Em
llego a una puerta toco el timbre y ya no puedo mas
   G                     Em
pero no me importa por que sale mi mama.

ESTA CANCION LA ESCRIBI DE PURO ABURRIDO , UN SALUDO PA La 
KAREN[CONNOLY],LA ALE [NEGRI],LA CAMILI , EL ARGEL EL CHIPANA,
Y PAL RAUL [ROMBO_MAN] . SUPONGO QUE TODOS HAY ECHO ALGUNA VEZ 
EL RIN RIN RAJA O NO??? . JAJAJA

Fuente original ATAME [www.atame.org]
Colaborador original: juan pablo [alboadicto129@hotmail.com]

Fuente: tusacordes.com