a b c d e f g h i j k l m n o p q r s t u v w x y z 0-9

Freddy Turbina - Equilibrio Espiritual

31 Minutos

			
Este es la tablatura de la kancion mas bakan del disko 31 minutos espero que este buena 

Intro Hablado                                              
Siii hoy es un día muy...
|---------------------------------------------------------------|
|-----9----7---------9----7----------9----7----------9----7-7---|
|------7-9----9-------7-9----9--------7-9----9--------7-9--9----|   x2
|--7---------------7---------------7---------------7------------|

lo mejor ke me ha pasado...
|---------------------------------------------------------------|
|-----9----7---------9----7----------9----7----------9----7-7---|
|------7-9----9-------7-9----9--------7-9----9--------7-9--9----|   
|--7---------------7---------------7---------------7------------|

Ahora alcanzo mayor velocidad...
|---------------------------------------------------------------|
|-----9----7---------9----7----------9----7----------9----7-7---|
|------7-9----9-------7-9----9--------7-9----9--------7-9--9----|   
|--7---------------7---------------7---------------7------------|

Soy genial...
|----------------------------------------|
|----------------------------------------|
|--7-7-5-7--7-7-5-7?96-------------------|
|----------------------7-7-5-7--7-7-5-7--| 

Hablado
Soy Freddy Turbina al volante...
|---------------------------------------------------------------|
|-----9----7---------9----7----------9----7----------9----7-7---|
|------7-9----9-------7-9----9--------7-9----9--------7-9--9----|   
|--7---------------7---------------7---------------7------------|

Ya no más vergüenza... 
|---------------------------------------------------------------|
|-----9----7---------9----7----------9----7----------9----7-7---|
|------7-9----9-------7-9----9--------7-9----9--------7-9--9----|   
|--7---------------7---------------7---------------7------------|

Tengo un nuevo concepto...
|---------------------------------------------------------------|
|-----9----7---------9----7----------9----7----------9----7-7---|
|------7-9----9-------7-9----9--------7-9----9--------7-9--9----|   
|--7---------------7---------------7---------------7------------|

Soy genial...
|----------------------------------------|
|----------------------------------------|
|--7-7-5-7--7-7-5-7?96-------------------|  x2
|----------------------7-7-5-7--7-7-5-7--| 

Nunka más Nunka. Rodillas peladas
|-----------------------|
|-----------------------|
|-----------------------|  
|-8-8-8-7-8--8-8-8-7-8--|


Nunka mas Nunka. Vergüenza en la calle
|-------------------------------|
|-------------------------------|
|-------------------------------|  
|-10-10-10-8-10--10-10?10-8-10--|

Nunka mas Nunka. Risas del niño
|------------------------|
|------------------------|
|-7-7-7----7--7-7-7---7--|  
|-------10----------10---|

Nunka mas Nunka. Burlas de nadie
|-----------------------|
|-----------------------|
|-9-9-9-7-9--9-9-9-7-9--|  
|-----------------------|

Solo de guitarra          oh!!! ese es el famoso Freddy Turbina
|---------------------------------------------------------------|
|-----9----7---------9----7----------9----7----------9----7-7---|
|------7-9----9-------7-9----9--------7-9----9--------7-9--9----|   x2  
|--7---------------7---------------7---------------7------------|

Soy genial...
|----------------------------------------|
|----------------------------------------|
|--7-7-5-7--7-7-5-7?96-------------------|
|----------------------7-7-5-7--7-7-5-7--|

Inmortal...
|----------------------------------------|
|----------------------------------------|
|--7-7-5-7--7-7-5-7?96-------------------|  x2
|----------------------7-7-5-7--7-7-5-7--|


Nunka más nunka. Rodillas peladas
|-----------------------|
|-----------------------|
|-----------------------|  
|-8-8-8-7-8--8-8-8-7-8--|


Nunka más nunka. Vergüenza en la calle
|-------------------------------|
|-------------------------------|
|-------------------------------|  
|-10-10-10-8-10--10-10?10-8-10--|

Nunka más nunka. Risas del niño
|------------------------|
|------------------------|
|-7-7-7----7--7-7-7---7--|  
|-------10----------10---|

Nunka más nunka. Burlas de nadie
|-----------------------|
|-----------------------|
|-9-9-9-7-9--9-9-9-7-9--|  
|-----------------------|

Siempre por siempre. Mi pelo al aire
|------------------------|
|-6-6-6---6--6-6-6---6--|
|-------9-----------9----|  
|------------------------|

Sobre dos ruedas. domino la calle
|-----------------------|
|-7-7-7-6-7--7-7-7-6-7--|
|-----------------------|  
|-----------------------|

No necesito ciclovias alcalde
|-----------------------|
|-9-9-9-7-9--9-9-9-7-9--|
|-----------------------|  
|-----------------------|

No necesito rueditas mamá!!!
|-7-7-7-5-7--7-7-7-5-7---|
|------------------------|
|------------------------|  
|------------------------|

Fin.
|------------------|
|-----9----7-------|
|------7-9----9----|
|--7------------7--|

Un saludo a todos los ke me konocen chao nos vemos en la otra
Vivan los CH.E.P

Fuente original ATAME [www.atame.org]
Colaborador original: FELIPE URREA ROMERO [TAZ_URREA@HOTMAIL.COM]

Fuente: tusacordes.com