a b c d e f g h i j k l m n o p q r s t u v w x y z 0-9

Flor Bovina - Mi Muñeca Me Hablo

31 Minutos

C
Am
Dm
G
			
MI MUÑECA ME HABLO:



     [ ESTA ES LA VERSION ORIGINAL DEL INTRO EN GUITARRA ] :


   E |---------------------|--------------------|
   B |---------------------|---------8-8h10---10|
   G |--7h9-7-7h9-7--------|-------9--------9---|
   D |--------------10-7-10|-10-10--------------|
   A |---------------------|--------------------|
   E |---------------------|--------------------|

   E |-------------------|-------------------|
   B |-8h10-8-10-8-------|-------------------| 
   G |-------------9----7|--------7-9-7----7-|
   D |---------------10--|-7-7-10-------10---|
   A |-------------------|-------------------|
   E |-------------------|-------------------|


                 C
Mi muñeca me hablo
         Am
me dijo cosas
                 Dm   G 
que no puedo repetir
                        C
porque me habla solo a Mi 


VERSO:
         Am
Me dijo cosas tan secretas
        C
Que tu no puedes oir
       Dm
me confeso algunos pecados
        G
que prefiero no decir
           Am
me dijo algunas cosas locas
        C
que no te voy a contar
         Dm
tocamos temas muy profundas
       G 
muy dificiles de hablar

VERSO:  [ Am - C - Dm - G ]

Y aunque no creas que ella habla
de verdad es parlanchina
se sabe un monton de cuentos
muy sucios de la vecina
pone cara de inocente
pero es tan peladora
mi muñeca sabe todo
es como una grabadora

FIN: 
        Am
Solo a Mi 
        C
Solo a ti...



    
    Esta es mi interpretacion personal de la cancion,
a todo esto muy pegote y k te hace volver a la 
infancia. AUNK NO TENGO MUÑEKAS!!!. 

            BY VICTOR    ;]

Fuente original ATAME [www.atame.org]
Colaborador original: VICTOR [victor23_85@hotmail.com]

Fuente: tusacordes.com