a b c d e f g h i j k l m n o p q r s t u v w x y z 0-9

Calcetin Con Rombos Man

31 Minutos

			
Es un punteo muy simple, practiquenlo...

v=vibrato
b=Bend levantamiento 
/=Slide
h=Hammer
p=Pull of


Calcetin con Rombos Man


e|-----------------|-----------------------------|
B|-----------------|--------------------10-------|
G|-9b11-9-7-9-7----|----7-9-9b11-9-7-9-----9b11v-|
D|--------------9v-|/9---------------------------|
A|-----------------|-----------------------------|
E|-----------------|-----------------------------|



e|-----------------------|-------------------13-12-10-----|
B|-----------------------|----------------------------12v-|
G|---7-9-9b11-9-7-9-7----|---7-9-9/11-9-------------------|
D|/9------------------9v-|-9------------12-9--------------|
A|-----------------------|--------------------------------|
E|-----------------------|--------------------------------|



e|-12h13-12-10-12-10v-|-12h13-12-10----10v-|-12h13-12-10-12-10v-|
B|--------------------|-------------12-----|--------------------|
G|--------------------|--------------------|--------------------|
D|--------------------|--------------------|--------------------|
A|--------------------|--------------------|--------------------|
E|--------------------|--------------------|--------------------|


e|-------10-12-12h13-13-13-13-13-12-10v-|
B|-10/12--------------------------------|
G|--------------------------------------|
D|--------------------------------------|
A|--------------------------------------|
E|--------------------------------------|

Segunda parte

e|-----------------|-----------------------------|
B|-----------------|--------------------10-------|
G|-9b11-9-7-9-7----|----7-9-9b11-9-7-9-----9b11v-|
D|--------------9v-|/9---------------------------|
A|-----------------|-----------------------------|
E|-----------------|-----------------------------|



e|-----------------------|-------------------13-12-10-----|
B|-----------------------|----------------------------12v-|
G|---7-9-9b11-9-7-9-7----|---7-9-9/11-9-------------------|
D|/9------------------9v-|-9------------12-9--------------|
A|-----------------------|--------------------------------|
E|-----------------------|--------------------------------|

e|--------------------------------|
B|--------------------------------|
G|-/7-------/9-------/11-/11-/11v-|
D|--------------------------------|
A|--------------------------------|
E|--------------------------------|

Fuente original ATAME [www.atame.org]
Colaborador original: Rudighert Schalchli [rudighert@hotmail.com]

Fuente: tusacordes.com