a b c d e f g h i j k l m n o p q r s t u v w x y z 0-9

Bailan Sin Cesar

31 Minutos

			
L.L.U.E.H.H.H.B. Latidos Latinos Emergentes Hip Hop Hermanos Brother

Es Muy Facil....
Intro cuando Dice: Bailan sin cesar... 
e--------------18--15----------
B--18--18--18------------------
G-----------------------Repetir
D------------------------------
A------------------------------
E------------------------------

Aqui empieza el vacile
e--------------18--15-----15---------------------------
B--18--18--18---------18-------------------------------
G----------------------------Repetir-------------------
D------------------------------------------------------
A------------------------------------------------------
E------------------------------------------------------

Hasta que aparezca cesar y lo arruine todo...
e--13--13--13--13--15--15--15--13----------------------
B----------------------------------15--15--15--13------
G--------------------------------------------------15--
D------------------------------------------------------
A------------------------------------------------------
E------------------------------------------------------

Bailan sin cesar...
e--------------18--15-----15---------------------------
B--18--18--18---------18-------------------------------
G----------------------------Repetir-------------------
D------------------------------------------------------
A------------------------------------------------------
E------------------------------------------------------

Que no baile Cesar
e--15--18--15--13--13--15------------------------------
B------------------------------------------------------
G------------------------------------------------------
D------------------------------------------------------
A------------------------------------------------------
E------------------------------------------------------

Mi cuerpo pide baile...
e--------------------------13--------------------------
B--15--15--15--13------13------------------------------
G------------------15----------------------------------
D------------------------------------------------------
A------------------------------------------------------
E------------------------------------------------------

Yo quiero Bailaaaaaaaaaaaaaar...........
e----------13h15--15/Hasta el Final--------------------
B--13--15----------------------------------------------
G------------------------------------------------------
D------------------------------------------------------
A------------------------------------------------------
E------------------------------------------------------

Despues Improvisa
Grande L.L.U.E.H.H.H.B. Latidos Latinos Emergentes Hip Hop Hermanos Brother

visiten www.cuartarock.8m.com
Musica, Toda la onda aqui

Fuente original ATAME [www.atame.org]
Colaborador original: Aguayo [chile_robot@hotmail.com]

Fuente: tusacordes.com